一生有你(前奏) 吉他谱

歌手: 来源:吉他吧 2008-10-07 曲谱热度:°

一生有你(前奏)


   G             D/#F    Em      Bm         C           D   


--------------------|------------------|---------------------
--0-----0---------3-|-------0---0------|---------------------
------0-----2---2---|-0---0------------|--------0------------
----0---------0-----|---2--------------|--2---2-----4---2-4--
--------------------|-----------2------|--3-3-------5--------
--3---------2-------|-0----------------|---------------------


    Am7      D               G             D/#F
|-----------------------|------------------------------------
|-----------------------|--0------0----------3---------------
|--0---0--2--2----------|-------0------2---2-----------------
|----2-------0----------|-----0----------0-------------------
|--0--------------------|------------------------------------
|-----------------------|--3-----------2---------------------


  Em        Bm           C              D         

----0-0-------------|--0-------0---3----2---0---2-----------
--0------3--0-------|--1---1------------3-------------------
--------------------|--0----------------2-------------------
--------------------|-------------------0-------------------
------------2-------|--3------------------------------------
--0-----------------|---------------------------------------


   Cm               G                  bE

---3-------3--5----3--------------|---------------------|---------
---4---4-----------3--------------|---4-3---------------|---------
---5---------------4--------------|---3---3-------------|---------
-------------------5--------------|---5-----2--2---5--4-|--4------
---3------------------------------|---6-----0--0--------|---------
----------------------------------|---------------------|---------

                                                          因为梦见你


      G                   G                   Am7            Am7

---------------------|----/-------------|---------------|------/--
-----------*-*-------|----|-------------|---------------|------|--
---------*-----*---*-|----|-------------|-----同前------|------|--
-------*---------*---|----|-------------|---------------|------|--
---------------------|----|-------------|---------------|------|--
-----*---------------|------------------|---------------|---------

     离开              我从哭泣中         醒来             看夜风吹过




    Bm7           |     Am7      |    D     |  
                     
|---------------------------------------------
|---------------------------------------------
|---------------------------------------------
|---------------------------------------------
|---------------------------------------------
|---------------------------------------------

    窗台    你能  |    否    感受|我的 爱
 

1.本站遵循行业规范,任何转载的曲谱和教程都会明确标注作者和来源;2.本站的原创曲谱,请转载时务必注明文章作者和来源,不尊重原创的行为我们将追究责任;3.作者投稿可能会经我们编辑修改或补充。

自动滚屏
全屏阅谱
关闭
自动滚屏
淮安坛读旅行社