李克勤《护花使者》TXT吉他谱

歌手:吉他吧 来源:未知 2020-04-02 曲谱热度:°


e----------------------------------------------------------
B----------------------------------------------------------
G----------------------------------------------------------
D----------------------------------------------------------
A----------------5-5-------------------------------5-5-----
E-0-3-4--5-5-8-8-----8-8--5-5-8-8-5-0-3-4--5-5-8-8-----8-8-

e--------------------8-8-8-8------------8-8-8-8-----------8-8-7-7-5-5-----
B--------------8-10---------------8-10---------------8-10-------------6-6-
G---------X-79---------------X-79---------------8-79----------------------
D-------------------------------------------------------------------------
A-------------------------------------------------------------------------
E-5-5-8-5-----------------------------------------------------------------


e-5-5----------8-9--10-10-10-10------8-9--10-10-10/12-10-10----------8-8-7-7-5-5-----
B-----6-5-5-10------------------X-10---------------------------8-10--------------6-6-
G-----------------------------------------------------------79-----------------------
D------------------------------------------------------------------------------------
A------------------------------------------------------------------------------------
E------------------------------------------------------------------------------------

e-5-5-----------13--10/12-10-8/10-8-7-5--------------------5-5-8-8-10-10-8-8-
B-----6-5-5-5-5-------------------------8-6--6-5--------5--------------------
G-------------------------------------------------7X5-7----------------------
D----------------------------------------------------------------------------
A----------------------------------------------------------------------------
E----------------------------------------------------------------------------


e-5-5-8-8-5--------------8-8-10-10-8-8--5-5-8-5-
B-----------5-8-9--10-10------------------------
G-----------------------------------------------
D-----------------------------------------------
A-----------------------------------------------
E-----------------------------------------------


Am Am
这晚在街中偶遇心中的她
Am Am
两脚决定不听叫唤跟她归家
Dm Dm
深宵的冷风 不准吹去她
Dm
她那幽幽眼神快要对我说话
Em Em
纤纤身影飘飘身影默默转来吧
Em Am Am Am
对我说浪漫情人爱 我 吗
Dm Dm
贪心的晚风 竟敢拥吻她
Am Am
将她秀发温温柔柔每缕每缕放下
Em Em
卑污的晚风 不应抚慰她
Am
我已决意一生护着心中的她

TXT吉他谱 李克勤 护花使者吉他谱 护花使者

1.本站遵循行业规范,任何转载的曲谱和教程都会明确标注作者和来源;2.本站的原创曲谱,请转载时务必注明文章作者和来源,不尊重原创的行为我们将追究责任;3.作者投稿可能会经我们编辑修改或补充。

TXT谱 TXT吉他谱 李克勤 护花使者吉他谱 护花使者吉他谱
自动滚屏
关闭
自动滚屏
淮安坛读旅行社